ISO-10303-21;
HEADER;
FILE_DESCRIPTION (( 'STEP AP203' ),
    '1' );
FILE_NAME ('Q-OZHWP-R2-12.7-2020-M.STEP',
    '2020-12-22T09:13:30',
    ( '' ),
    ( '' ),
    'SwSTEP 2.0',
    'SolidWorks 2020',
    '' );
FILE_SCHEMA (( 'CONFIG_CONTROL_DESIGN' ));
ENDSEC;

DATA;
#1 = AXIS2_PLACEMENT_3D ( 'NONE', #295, #296, #232 ) ;
#2 = ADVANCED_FACE ( 'NONE', ( #139 ), #186, .F. ) ;
#3 = APPROVAL_STATUS ( 'not_yet_approved' ) ;
#4 = DIRECTION ( 'NONE',  ( 0.000000000000000000, 0.000000000000000000, 1.000000000000000000 ) ) ;
#5 = CYLINDRICAL_SURFACE ( 'NONE', #243, 6.349999999999999645 ) ;
#6 = DIRECTION ( 'NONE',  ( 0.000000000000000000, 0.000000000000000000, 1.000000000000000000 ) ) ;
#7 = DIRECTION ( 'NONE',  ( 1.000000000000000000, 0.000000000000000000, 0.000000000000000000 ) ) ;
#8 = CARTESIAN_POINT ( 'NONE',  ( -1.614212418857619014, 1.555301434917138433E-15, -12.69999999999999929 ) ) ;
#9 = AXIS2_PLACEMENT_3D ( 'NONE', #214, #94, #15 ) ;
#10 = APPROVAL_PERSON_ORGANIZATION ( #83, #242, #259 ) ;
#11 = CARTESIAN_POINT ( 'NONE',  ( 3.000000000000000888, 7.776507174585692163E-16, -6.349999999999999645 ) ) ;
#12 = VERTEX_POINT ( 'NONE', #112 ) ;
#13 = CARTESIAN_POINT ( 'NONE',  ( -1.500000000000000444, 7.776507174585692163E-16, -6.349999999999999645 ) ) ;
#14 = DIRECTION ( 'NONE',  ( 0.000000000000000000, 0.000000000000000000, 1.000000000000000000 ) ) ;
#15 = DIRECTION ( 'NONE',  ( -0.000000000000000000, 0.000000000000000000, 1.000000000000000000 ) ) ;
#16 = PLANE ( 'NONE',  #9 ) ;
#17 = SECURITY_CLASSIFICATION ( '', '', #128 ) ;
#18 = ORIENTED_EDGE ( 'NONE', *, *, #63, .F. ) ;
#19 = CALENDAR_DATE ( 2020, 22, 12 ) ;
#20 = ORIENTED_EDGE ( 'NONE', *, *, #167, .T. ) ;
#21 = CARTESIAN_POINT ( 'NONE',  ( -1.500000000000000444, 0.000000000000000000, 0.000000000000000000 ) ) ;
#22 = VERTEX_POINT ( 'NONE', #297 ) ;
#23 = PRODUCT_DEFINITION_SHAPE ( 'NONE', 'NONE',  #246 ) ;
#24 = PERSON_AND_ORGANIZATION ( #97, #154 ) ;
#25 = ORIENTED_EDGE ( 'NONE', *, *, #167, .F. ) ;
#26 = APPROVAL_STATUS ( 'not_yet_approved' ) ;
#27 = CARTESIAN_POINT ( 'NONE',  ( -1.614212418857619014, 0.000000000000000000, 0.000000000000000000 ) ) ;
#28 = APPROVAL_STATUS ( 'not_yet_approved' ) ;
#29 = PERSON_AND_ORGANIZATION_ROLE ( 'design_supplier' ) ;
#30 = DIRECTION ( 'NONE',  ( -1.000000000000000000, -0.000000000000000000, -0.000000000000000000 ) ) ;
#31 = VECTOR ( 'NONE', #68, 1000.000000000000000 ) ;
#32 = EDGE_CURVE ( 'NONE', #22, #12, #86, .T. ) ;
#33 = CARTESIAN_POINT ( 'NONE',  ( -1.614212418857619014, 0.000000000000000000, 12.69999999999999929 ) ) ;
#34 = PLANE ( 'NONE',  #1 ) ;
#35 = CARTESIAN_POINT ( 'NONE',  ( 1.500000000000000888, 0.000000000000000000, 0.000000000000000000 ) ) ;
#36 = VERTEX_POINT ( 'NONE', #117 ) ;
#37 = CC_DESIGN_APPROVAL ( #242, ( #246 ) ) ;
#38 = DIRECTION ( 'NONE',  ( -1.000000000000000000, -0.000000000000000000, -0.000000000000000000 ) ) ;
#39 = CARTESIAN_POINT ( 'NONE',  ( -1.614212418857619014, 7.776507174585692163E-16, -6.349999999999999645 ) ) ;
#40 = ORIENTED_EDGE ( 'NONE', *, *, #89, .T. ) ;
#41 = CARTESIAN_POINT ( 'NONE',  ( -1.500000000000000444, 0.000000000000000000, 0.000000000000000000 ) ) ;
#42 = ADVANCED_FACE ( 'NONE', ( #272 ), #140, .T. ) ;
#43 = CIRCLE ( 'NONE', #322, 6.349999999999999645 ) ;
#44 = AXIS2_PLACEMENT_3D ( 'NONE', #312, #80, #82 ) ;
#45 = ADVANCED_FACE ( 'NONE', ( #241, #321 ), #16, .F. ) ;
#46 = EDGE_LOOP ( 'NONE', ( #178, #329, #304, #269 ) ) ;
#47 = APPROVAL_DATE_TIME ( #156, #123 ) ;
#48 = VERTEX_POINT ( 'NONE', #166 ) ;
#49 = COORDINATED_UNIVERSAL_TIME_OFFSET ( 8, 0, .AHEAD. ) ;
#50 = VERTEX_POINT ( 'NONE', #219 ) ;
#51 = DIRECTION ( 'NONE',  ( 1.000000000000000000, 0.000000000000000000, 0.000000000000000000 ) ) ;
#52 = PERSON_AND_ORGANIZATION_ROLE ( 'classification_officer' ) ;
#53 = DIRECTION ( 'NONE',  ( 0.000000000000000000, 0.000000000000000000, 1.000000000000000000 ) ) ;
#54 = DATE_AND_TIME ( #126, #183 ) ;
#55 = PRODUCT_RELATED_PRODUCT_CATEGORY ( 'detail', '', ( #285 ) ) ;
#56 = DIRECTION ( 'NONE',  ( 1.000000000000000000, 0.000000000000000000, 0.000000000000000000 ) ) ;
#57 = CARTESIAN_POINT ( 'NONE',  ( 1.500000000000000888, 0.000000000000000000, 0.000000000000000000 ) ) ;
#58 = VECTOR ( 'NONE', #215, 1000.000000000000000 ) ;
#59 = CARTESIAN_POINT ( 'NONE',  ( -1.500000000000000444, 0.000000000000000000, 6.349999999999999645 ) ) ;
#60 = DIRECTION ( 'NONE',  ( 0.000000000000000000, 0.000000000000000000, 1.000000000000000000 ) ) ;
#61 = CARTESIAN_POINT ( 'NONE',  ( -2.999999999999999556, 0.000000000000000000, 6.349999999999999645 ) ) ;
#62 = ORIENTED_EDGE ( 'NONE', *, *, #305, .T. ) ;
#63 = EDGE_CURVE ( 'NONE', #226, #288, #121, .T. ) ;
#64 = CC_DESIGN_SECURITY_CLASSIFICATION ( #17, ( #216 ) ) ;
#65 = LINE ( 'NONE', #33, #316 ) ;
#66 = ORIENTED_EDGE ( 'NONE', *, *, #277, .T. ) ;
#67 = AXIS2_PLACEMENT_3D ( 'NONE', #27, #290, #53 ) ;
#68 = DIRECTION ( 'NONE',  ( -1.000000000000000000, -0.000000000000000000, -0.000000000000000000 ) ) ;
#69 = ORIENTED_EDGE ( 'NONE', *, *, #32, .F. ) ;
#70 = ADVANCED_FACE ( 'NONE', ( #188 ), #299, .F. ) ;
#71 = AXIS2_PLACEMENT_3D ( 'NONE', #120, #7, #210 ) ;
#72 = ORIENTED_EDGE ( 'NONE', *, *, #327, .F. ) ;
#73 = CIRCLE ( 'NONE', #263, 12.69999999999999929 ) ;
#74 =( NAMED_UNIT ( * ) PLANE_ANGLE_UNIT ( ) SI_UNIT ( $, .RADIAN. ) );
#75 = ORIENTED_EDGE ( 'NONE', *, *, #280, .F. ) ;
#76 = CALENDAR_DATE ( 2020, 22, 12 ) ;
#77 = CC_DESIGN_PERSON_AND_ORGANIZATION_ASSIGNMENT ( #143, #330, ( #246 ) ) ;
#78 = ORIENTED_EDGE ( 'NONE', *, *, #91, .T. ) ;
#79 = CARTESIAN_POINT ( 'NONE',  ( 0.000000000000000000, 0.000000000000000000, 0.000000000000000000 ) ) ;
#80 = DIRECTION ( 'NONE',  ( -1.000000000000000000, -0.000000000000000000, -0.000000000000000000 ) ) ;
#81 = PERSON_AND_ORGANIZATION ( #97, #154 ) ;
#82 = DIRECTION ( 'NONE',  ( 0.000000000000000000, 0.000000000000000000, 1.000000000000000000 ) ) ;
#83 = PERSON_AND_ORGANIZATION ( #97, #154 ) ;
#84 = DIRECTION ( 'NONE',  ( 0.000000000000000000, 0.000000000000000000, -1.000000000000000000 ) ) ;
#85 = CARTESIAN_POINT ( 'NONE',  ( -3.000000000000000000, 0.000000000000000000, 0.000000000000000000 ) ) ;
#86 = CIRCLE ( 'NONE', #283, 12.69999999999999929 ) ;
#87 = DIRECTION ( 'NONE',  ( 1.000000000000000000, 0.000000000000000000, 0.000000000000000000 ) ) ;
#88 = DIRECTION ( 'NONE',  ( 0.000000000000000000, 0.000000000000000000, 1.000000000000000000 ) ) ;
#89 = EDGE_CURVE ( 'NONE', #222, #226, #274, .T. ) ;
#90 = CARTESIAN_POINT ( 'NONE',  ( -3.000000000000000000, 0.000000000000000000, 0.000000000000000000 ) ) ;
#91 = EDGE_CURVE ( 'NONE', #288, #226, #311, .T. ) ;
#92 = CARTESIAN_POINT ( 'NONE',  ( -1.614212418857619014, 0.000000000000000000, 0.000000000000000000 ) ) ;
#93 = DIRECTION ( 'NONE',  ( 0.000000000000000000, 0.000000000000000000, 1.000000000000000000 ) ) ;
#94 = DIRECTION ( 'NONE',  ( -1.000000000000000000, 0.000000000000000000, -0.000000000000000000 ) ) ;
#95 = EDGE_LOOP ( 'NONE', ( #18, #306 ) ) ;
#96 = AXIS2_PLACEMENT_3D ( 'NONE', #21, #51, #225 ) ;
#97 = PERSON ( 'UNSPECIFIED', 'UNSPECIFIED', 'UNSPECIFIED', ('UNSPECIFIED'), ('UNSPECIFIED'), ('UNSPECIFIED') ) ;
#98 = ORIENTED_EDGE ( 'NONE', *, *, #195, .T. ) ;
#99 = ORIENTED_EDGE ( 'NONE', *, *, #327, .T. ) ;
#100 = CIRCLE ( 'NONE', #165, 6.349999999999999645 ) ;
#101 = EDGE_CURVE ( 'NONE', #222, #253, #100, .T. ) ;
#102 = ORIENTED_EDGE ( 'NONE', *, *, #63, .T. ) ;
#103 = VERTEX_POINT ( 'NONE', #159 ) ;
#104 = FACE_OUTER_BOUND ( 'NONE', #212, .T. ) ;
#105 = FACE_OUTER_BOUND ( 'NONE', #149, .T. ) ;
#106 = COORDINATED_UNIVERSAL_TIME_OFFSET ( 8, 0, .AHEAD. ) ;
#107 = DIRECTION ( 'NONE',  ( -1.000000000000000000, -0.000000000000000000, -0.000000000000000000 ) ) ;
#108 = DIRECTION ( 'NONE',  ( -1.000000000000000000, -0.000000000000000000, -0.000000000000000000 ) ) ;
#109 = CC_DESIGN_DATE_AND_TIME_ASSIGNMENT ( #155, #177, ( #246 ) ) ;
#110 = FACE_BOUND ( 'NONE', #95, .T. ) ;
#111 = AXIS2_PLACEMENT_3D ( 'NONE', #313, #38, #138 ) ;
#112 = CARTESIAN_POINT ( 'NONE',  ( 3.000000000000000000, 0.000000000000000000, 12.69999999999999929 ) ) ;
#113 = AXIS2_PLACEMENT_3D ( 'NONE', #57, #233, #293 ) ;
#114 = DESIGN_CONTEXT ( 'detailed design', #258, 'design' ) ;
#115 = CARTESIAN_POINT ( 'NONE',  ( -3.000000000000000000, 6.349999999999999645, 0.000000000000000000 ) ) ;
#116 = ORIENTED_EDGE ( 'NONE', *, *, #277, .F. ) ;
#117 = CARTESIAN_POINT ( 'NONE',  ( 1.500000000000000888, 7.776507174585692163E-16, -6.349999999999999645 ) ) ;
#118 = LINE ( 'NONE', #8, #58 ) ;
#119 = CC_DESIGN_APPROVAL ( #123, ( #216 ) ) ;
#120 = CARTESIAN_POINT ( 'NONE',  ( -1.500000000000000444, 6.349999999999999645, 0.000000000000000000 ) ) ;
#121 = CIRCLE ( 'NONE', #136, 6.349999999999999645 ) ;
#122 = ORIENTED_EDGE ( 'NONE', *, *, #101, .F. ) ;
#123 = APPROVAL ( #26, 'UNSPECIFIED' ) ;
#124 = ORIENTED_EDGE ( 'NONE', *, *, #234, .T. ) ;
#125 = EDGE_LOOP ( 'NONE', ( #223, #69 ) ) ;
#126 = CALENDAR_DATE ( 2020, 22, 12 ) ;
#127 = EDGE_LOOP ( 'NONE', ( #98, #238 ) ) ;
#128 = SECURITY_CLASSIFICATION_LEVEL ( 'unclassified' ) ;
#129 = CIRCLE ( 'NONE', #111, 6.349999999999999645 ) ;
#130 = CARTESIAN_POINT ( 'NONE',  ( -1.614212418857619014, 7.776507174585692163E-16, -6.349999999999999645 ) ) ;
#131 = EDGE_CURVE ( 'NONE', #12, #103, #65, .T. ) ;
#132 = DIRECTION ( 'NONE',  ( 0.000000000000000000, 0.000000000000000000, 1.000000000000000000 ) ) ;
#133 = FACE_OUTER_BOUND ( 'NONE', #309, .T. ) ;
#134 = DIRECTION ( 'NONE',  ( -1.000000000000000000, -0.000000000000000000, -0.000000000000000000 ) ) ;
#135 = CARTESIAN_POINT ( 'NONE',  ( -1.614212418857619014, 0.000000000000000000, 6.349999999999999645 ) ) ;
#136 = AXIS2_PLACEMENT_3D ( 'NONE', #142, #236, #93 ) ;
#137 = ORIENTED_EDGE ( 'NONE', *, *, #101, .T. ) ;
#138 = DIRECTION ( 'NONE',  ( 0.000000000000000000, 0.000000000000000000, 1.000000000000000000 ) ) ;
#139 = FACE_OUTER_BOUND ( 'NONE', #46, .T. ) ;
#140 = CYLINDRICAL_SURFACE ( 'NONE', #289, 12.69999999999999929 ) ;
#141 = LOCAL_TIME ( 17, 13, 30.00000000000000000, #49 ) ;
#142 = CARTESIAN_POINT ( 'NONE',  ( -2.999999999999999556, 0.000000000000000000, 0.000000000000000000 ) ) ;
#143 = PERSON_AND_ORGANIZATION ( #97, #154 ) ;
#144 = CIRCLE ( 'NONE', #184, 12.69999999999999929 ) ;
#145 = ADVANCED_FACE ( 'NONE', ( #164 ), #34, .F. ) ;
#146 = AXIS2_PLACEMENT_3D ( 'NONE', #239, #320, #14 ) ;
#147 = EDGE_LOOP ( 'NONE', ( #122, #201 ) ) ;
#148 = CIRCLE ( 'NONE', #96, 6.349999999999999645 ) ;
#149 = EDGE_LOOP ( 'NONE', ( #286, #334, #99, #271 ) ) ;
#150 = DATE_TIME_ROLE ( 'classification_date' ) ;
#151 = ORIENTED_EDGE ( 'NONE', *, *, #131, .F. ) ;
#152 = COORDINATED_UNIVERSAL_TIME_OFFSET ( 8, 0, .AHEAD. ) ;
#153 = VERTEX_POINT ( 'NONE', #11 ) ;
#154 = ORGANIZATION ( 'UNSPECIFIED', 'UNSPECIFIED', '' ) ;
#155 = DATE_AND_TIME ( #19, #141 ) ;
#156 = DATE_AND_TIME ( #76, #310 ) ;
#157 = DIRECTION ( 'NONE',  ( -1.000000000000000000, -0.000000000000000000, -0.000000000000000000 ) ) ;
#158 = VECTOR ( 'NONE', #319, 1000.000000000000000 ) ;
#159 = CARTESIAN_POINT ( 'NONE',  ( -3.000000000000000000, 0.000000000000000000, 12.69999999999999929 ) ) ;
#160 = CC_DESIGN_PERSON_AND_ORGANIZATION_ASSIGNMENT ( #24, #29, ( #216 ) ) ;
#161 = DIRECTION ( 'NONE',  ( -1.000000000000000000, -0.000000000000000000, -0.000000000000000000 ) ) ;
#162 = LINE ( 'NONE', #135, #158 ) ;
#163 = DIRECTION ( 'NONE',  ( 0.000000000000000000, 0.000000000000000000, 1.000000000000000000 ) ) ;
#164 = FACE_OUTER_BOUND ( 'NONE', #197, .T. ) ;
#165 = AXIS2_PLACEMENT_3D ( 'NONE', #41, #56, #84 ) ;
#166 = CARTESIAN_POINT ( 'NONE',  ( 3.000000000000000888, 0.000000000000000000, 6.349999999999999645 ) ) ;
#167 = EDGE_CURVE ( 'NONE', #50, #103, #279, .T. ) ;
#168 = PERSON_AND_ORGANIZATION ( #97, #154 ) ;
#169 =( LENGTH_UNIT ( ) NAMED_UNIT ( * ) SI_UNIT ( .MILLI., .METRE. ) );
#170 = CARTESIAN_POINT ( 'NONE',  ( -1.614212418857619014, 0.000000000000000000, 6.349999999999999645 ) ) ;
#171 = CC_DESIGN_APPROVAL ( #173, ( #17 ) ) ;
#172 = EDGE_CURVE ( 'NONE', #153, #36, #270, .T. ) ;
#173 = APPROVAL ( #3, 'UNSPECIFIED' ) ;
#174 = ORIENTED_EDGE ( 'NONE', *, *, #89, .F. ) ;
#175 = DIRECTION ( 'NONE',  ( 1.000000000000000000, 0.000000000000000000, 0.000000000000000000 ) ) ;
#176 = ORIENTED_EDGE ( 'NONE', *, *, #200, .F. ) ;
#177 = DATE_TIME_ROLE ( 'creation_date' ) ;
#178 = ORIENTED_EDGE ( 'NONE', *, *, #172, .F. ) ;
#179 = EDGE_CURVE ( 'NONE', #153, #48, #129, .T. ) ;
#180 = SHAPE_DEFINITION_REPRESENTATION ( #23, #281 ) ;
#181 = CARTESIAN_POINT ( 'NONE',  ( -2.999999999999999556, 7.776507174585692163E-16, -6.349999999999999645 ) ) ;
#182 = CARTESIAN_POINT ( 'NONE',  ( 1.500000000000000888, 0.000000000000000000, 6.349999999999999645 ) ) ;
#183 = LOCAL_TIME ( 17, 13, 30.00000000000000000, #152 ) ;
#184 = AXIS2_PLACEMENT_3D ( 'NONE', #90, #245, #190 ) ;
#185 = CARTESIAN_POINT ( 'NONE',  ( -1.614212418857619014, 0.000000000000000000, 0.000000000000000000 ) ) ;
#186 = CYLINDRICAL_SURFACE ( 'NONE', #146, 6.349999999999999645 ) ;
#187 = DIRECTION ( 'NONE',  ( 0.000000000000000000, 0.000000000000000000, 1.000000000000000000 ) ) ;
#188 = FACE_OUTER_BOUND ( 'NONE', #147, .T. ) ;
#189 = EDGE_LOOP ( 'NONE', ( #124, #66, #75, #151 ) ) ;
#190 = DIRECTION ( 'NONE',  ( 0.000000000000000000, 0.000000000000000000, 1.000000000000000000 ) ) ;
#191 = DATE_AND_TIME ( #326, #193 ) ;
#192 = AXIS2_PLACEMENT_3D ( 'NONE', #115, #87, #211 ) ;
#193 = LOCAL_TIME ( 17, 13, 30.00000000000000000, #106 ) ;
#194 = VERTEX_POINT ( 'NONE', #182 ) ;
#195 = EDGE_CURVE ( 'NONE', #48, #153, #43, .T. ) ;
#196 = LOCAL_TIME ( 17, 13, 30.00000000000000000, #254 ) ;
#197 = EDGE_LOOP ( 'NONE', ( #199, #72 ) ) ;
#198 = DIRECTION ( 'NONE',  ( 0.000000000000000000, 0.000000000000000000, 1.000000000000000000 ) ) ;
#199 = ORIENTED_EDGE ( 'NONE', *, *, #332, .F. ) ;
#200 = EDGE_CURVE ( 'NONE', #253, #288, #291, .T. ) ;
#201 = ORIENTED_EDGE ( 'NONE', *, *, #305, .F. ) ;
#202 = CIRCLE ( 'NONE', #298, 6.349999999999999645 ) ;
#203 = VECTOR ( 'NONE', #266, 1000.000000000000000 ) ;
#204 = PERSON_AND_ORGANIZATION ( #97, #154 ) ;
#205 = CYLINDRICAL_SURFACE ( 'NONE', #44, 6.349999999999999645 ) ;
#206 = DATE_AND_TIME ( #228, #196 ) ;
#207 = DIRECTION ( 'NONE',  ( 0.000000000000000000, 0.000000000000000000, 1.000000000000000000 ) ) ;
#208 = AXIS2_PLACEMENT_3D ( 'NONE', #85, #315, #4 ) ;
#209 = FACE_OUTER_BOUND ( 'NONE', #333, .T. ) ;
#210 = DIRECTION ( 'NONE',  ( 0.000000000000000000, 0.000000000000000000, -1.000000000000000000 ) ) ;
#211 = DIRECTION ( 'NONE',  ( 0.000000000000000000, 0.000000000000000000, -1.000000000000000000 ) ) ;
#212 = EDGE_LOOP ( 'NONE', ( #137, #325, #78, #174 ) ) ;
#213 = CC_DESIGN_PERSON_AND_ORGANIZATION_ASSIGNMENT ( #204, #224, ( #216 ) ) ;
#214 = CARTESIAN_POINT ( 'NONE',  ( 3.000000000000000000, 12.69999999999999929, 0.000000000000000000 ) ) ;
#215 = DIRECTION ( 'NONE',  ( -1.000000000000000000, -0.000000000000000000, -0.000000000000000000 ) ) ;
#216 = PRODUCT_DEFINITION_FORMATION_WITH_SPECIFIED_SOURCE ( 'ANY', '', #285, .NOT_KNOWN. ) ;
#217 = CYLINDRICAL_SURFACE ( 'NONE', #328, 12.69999999999999929 ) ;
#218 = VECTOR ( 'NONE', #157, 1000.000000000000000 ) ;
#219 = CARTESIAN_POINT ( 'NONE',  ( -3.000000000000000000, 1.555301434917138433E-15, -12.69999999999999929 ) ) ;
#220 = PERSON_AND_ORGANIZATION_ROLE ( 'design_owner' ) ;
#221 = ADVANCED_FACE ( 'NONE', ( #237 ), #5, .F. ) ;
#222 = VERTEX_POINT ( 'NONE', #59 ) ;
#223 = ORIENTED_EDGE ( 'NONE', *, *, #234, .F. ) ;
#224 = PERSON_AND_ORGANIZATION_ROLE ( 'creator' ) ;
#225 = DIRECTION ( 'NONE',  ( 0.000000000000000000, 0.000000000000000000, -1.000000000000000000 ) ) ;
#226 = VERTEX_POINT ( 'NONE', #61 ) ;
#227 = CC_DESIGN_DATE_AND_TIME_ASSIGNMENT ( #206, #150, ( #17 ) ) ;
#228 = CALENDAR_DATE ( 2020, 22, 12 ) ;
#229 = APPROVAL_ROLE ( '' ) ;
#230 = CIRCLE ( 'NONE', #113, 6.349999999999999645 ) ;
#231 = PERSON_AND_ORGANIZATION ( #97, #154 ) ;
#232 = DIRECTION ( 'NONE',  ( -0.000000000000000000, 0.000000000000000000, 1.000000000000000000 ) ) ;
#233 = DIRECTION ( 'NONE',  ( -1.000000000000000000, -0.000000000000000000, -0.000000000000000000 ) ) ;
#234 = EDGE_CURVE ( 'NONE', #12, #22, #73, .T. ) ;
#235 = CARTESIAN_POINT ( 'NONE',  ( 3.000000000000000000, 0.000000000000000000, 0.000000000000000000 ) ) ;
#236 = DIRECTION ( 'NONE',  ( -1.000000000000000000, -0.000000000000000000, -0.000000000000000000 ) ) ;
#237 = FACE_OUTER_BOUND ( 'NONE', #248, .T. ) ;
#238 = ORIENTED_EDGE ( 'NONE', *, *, #179, .T. ) ;
#239 = CARTESIAN_POINT ( 'NONE',  ( -1.614212418857619014, 0.000000000000000000, 0.000000000000000000 ) ) ;
#240 = MECHANICAL_CONTEXT ( 'NONE', #264, 'mechanical' ) ;
#241 = FACE_OUTER_BOUND ( 'NONE', #125, .T. ) ;
#242 = APPROVAL ( #28, 'UNSPECIFIED' ) ;
#243 = AXIS2_PLACEMENT_3D ( 'NONE', #185, #108, #268 ) ;
#244 = DIRECTION ( 'NONE',  ( -1.000000000000000000, -0.000000000000000000, -0.000000000000000000 ) ) ;
#245 = DIRECTION ( 'NONE',  ( -1.000000000000000000, -0.000000000000000000, -0.000000000000000000 ) ) ;
#246 = PRODUCT_DEFINITION ( 'UNKNOWN', '', #216, #114 ) ;
#247 = CLOSED_SHELL ( 'NONE', ( #42, #282, #302, #145, #2, #221, #250, #314, #45, #70 ) ) ;
#248 = EDGE_LOOP ( 'NONE', ( #176, #62, #40, #102 ) ) ;
#249 = UNCERTAINTY_MEASURE_WITH_UNIT (LENGTH_MEASURE( 1.000000000000000082E-05 ), #169, 'distance_accuracy_value', 'NONE');
#250 = ADVANCED_FACE ( 'NONE', ( #110, #209 ), #317, .F. ) ;
#251 = APPROVAL_DATE_TIME ( #54, #173 ) ;
#252 = EDGE_CURVE ( 'NONE', #48, #194, #162, .T. ) ;
#253 = VERTEX_POINT ( 'NONE', #13 ) ;
#254 = COORDINATED_UNIVERSAL_TIME_OFFSET ( 8, 0, .AHEAD. ) ;
#255 =( GEOMETRIC_REPRESENTATION_CONTEXT ( 3 ) GLOBAL_UNCERTAINTY_ASSIGNED_CONTEXT ( ( #249 ) ) GLOBAL_UNIT_ASSIGNED_CONTEXT ( ( #169, #74, #307 ) ) REPRESENTATION_CONTEXT ( 'NONE', 'WORKASPACE' ) );
#256 = ORIENTED_EDGE ( 'NONE', *, *, #280, .T. ) ;
#257 = COORDINATED_UNIVERSAL_TIME_OFFSET ( 8, 0, .AHEAD. ) ;
#258 = APPLICATION_CONTEXT ( 'configuration controlled 3d designs of mechanical parts and assemblies' ) ;
#259 = APPROVAL_ROLE ( '' ) ;
#260 = APPROVAL_ROLE ( '' ) ;
#261 = CARTESIAN_POINT ( 'NONE',  ( 3.000000000000000888, 0.000000000000000000, 0.000000000000000000 ) ) ;
#262 = APPROVAL_PERSON_ORGANIZATION ( #81, #123, #260 ) ;
#263 = AXIS2_PLACEMENT_3D ( 'NONE', #235, #161, #6 ) ;
#264 = APPLICATION_CONTEXT ( 'configuration controlled 3d designs of mechanical parts and assemblies' ) ;
#265 = DIRECTION ( 'NONE',  ( -1.000000000000000000, -0.000000000000000000, -0.000000000000000000 ) ) ;
#266 = DIRECTION ( 'NONE',  ( -1.000000000000000000, -0.000000000000000000, -0.000000000000000000 ) ) ;
#267 = CC_DESIGN_PERSON_AND_ORGANIZATION_ASSIGNMENT ( #168, #220, ( #285 ) ) ;
#268 = DIRECTION ( 'NONE',  ( 0.000000000000000000, 0.000000000000000000, 1.000000000000000000 ) ) ;
#269 = ORIENTED_EDGE ( 'NONE', *, *, #332, .T. ) ;
#270 = LINE ( 'NONE', #39, #203 ) ;
#271 = ORIENTED_EDGE ( 'NONE', *, *, #252, .F. ) ;
#272 = FACE_OUTER_BOUND ( 'NONE', #189, .T. ) ;
#273 = CARTESIAN_POINT ( 'NONE',  ( -1.614212418857619014, 0.000000000000000000, 0.000000000000000000 ) ) ;
#274 = LINE ( 'NONE', #170, #31 ) ;
#275 = APPLICATION_PROTOCOL_DEFINITION ( 'international standard', 'config_control_design', 1994, #264 ) ;
#276 = APPROVAL_DATE_TIME ( #191, #242 ) ;
#277 = EDGE_CURVE ( 'NONE', #22, #50, #118, .T. ) ;
#278 = AXIS2_PLACEMENT_3D ( 'NONE', #323, #300, #88 ) ;
#279 = CIRCLE ( 'NONE', #208, 12.69999999999999929 ) ;
#280 = EDGE_CURVE ( 'NONE', #103, #50, #144, .T. ) ;
#281 = ADVANCED_BREP_SHAPE_REPRESENTATION ( 'Q-OZHWP-R2-12.7-2020-M', ( #292, #303 ), #255 ) ;
#282 = ADVANCED_FACE ( 'NONE', ( #104 ), #335, .F. ) ;
#283 = AXIS2_PLACEMENT_3D ( 'NONE', #318, #134, #163 ) ;
#284 = ORIENTED_EDGE ( 'NONE', *, *, #131, .T. ) ;
#285 = PRODUCT ( 'Q-OZHWP-R2-12.7-2020-M', 'Q-OZHWP-R2-12.7-2020-M', '', ( #240 ) ) ;
#286 = ORIENTED_EDGE ( 'NONE', *, *, #179, .F. ) ;
#287 = PERSON_AND_ORGANIZATION ( #97, #154 ) ;
#288 = VERTEX_POINT ( 'NONE', #181 ) ;
#289 = AXIS2_PLACEMENT_3D ( 'NONE', #92, #244, #187 ) ;
#290 = DIRECTION ( 'NONE',  ( -1.000000000000000000, -0.000000000000000000, -0.000000000000000000 ) ) ;
#291 = LINE ( 'NONE', #130, #218 ) ;
#292 = MANIFOLD_SOLID_BREP ( 'Ðý×', #247 ) ;
#293 = DIRECTION ( 'NONE',  ( 0.000000000000000000, 0.000000000000000000, 1.000000000000000000 ) ) ;
#294 = CC_DESIGN_PERSON_AND_ORGANIZATION_ASSIGNMENT ( #231, #52, ( #17 ) ) ;
#295 = CARTESIAN_POINT ( 'NONE',  ( 1.500000000000000444, 6.349999999999999645, 0.000000000000000000 ) ) ;
#296 = DIRECTION ( 'NONE',  ( -1.000000000000000000, 0.000000000000000000, -0.000000000000000000 ) ) ;
#297 = CARTESIAN_POINT ( 'NONE',  ( 3.000000000000000000, 1.555301434917138433E-15, -12.69999999999999929 ) ) ;
#298 = AXIS2_PLACEMENT_3D ( 'NONE', #35, #301, #60 ) ;
#299 = PLANE ( 'NONE',  #71 ) ;
#300 = DIRECTION ( 'NONE',  ( -1.000000000000000000, -0.000000000000000000, -0.000000000000000000 ) ) ;
#301 = DIRECTION ( 'NONE',  ( -1.000000000000000000, -0.000000000000000000, -0.000000000000000000 ) ) ;
#302 = ADVANCED_FACE ( 'NONE', ( #105 ), #205, .F. ) ;
#303 = AXIS2_PLACEMENT_3D ( 'NONE', #79, #198, #175 ) ;
#304 = ORIENTED_EDGE ( 'NONE', *, *, #252, .T. ) ;
#305 = EDGE_CURVE ( 'NONE', #253, #222, #148, .T. ) ;
#306 = ORIENTED_EDGE ( 'NONE', *, *, #91, .F. ) ;
#307 =( NAMED_UNIT ( * ) SI_UNIT ( $, .STERADIAN. ) SOLID_ANGLE_UNIT ( ) );
#308 = ORIENTED_EDGE ( 'NONE', *, *, #32, .T. ) ;
#309 = EDGE_LOOP ( 'NONE', ( #116, #308, #284, #25 ) ) ;
#310 = LOCAL_TIME ( 17, 13, 30.00000000000000000, #257 ) ;
#311 = CIRCLE ( 'NONE', #278, 6.349999999999999645 ) ;
#312 = CARTESIAN_POINT ( 'NONE',  ( -1.614212418857619014, 0.000000000000000000, 0.000000000000000000 ) ) ;
#313 = CARTESIAN_POINT ( 'NONE',  ( 3.000000000000000888, 0.000000000000000000, 0.000000000000000000 ) ) ;
#314 = ADVANCED_FACE ( 'NONE', ( #133 ), #217, .T. ) ;
#315 = DIRECTION ( 'NONE',  ( -1.000000000000000000, -0.000000000000000000, -0.000000000000000000 ) ) ;
#316 = VECTOR ( 'NONE', #265, 1000.000000000000000 ) ;
#317 = PLANE ( 'NONE',  #192 ) ;
#318 = CARTESIAN_POINT ( 'NONE',  ( 3.000000000000000000, 0.000000000000000000, 0.000000000000000000 ) ) ;
#319 = DIRECTION ( 'NONE',  ( -1.000000000000000000, -0.000000000000000000, -0.000000000000000000 ) ) ;
#320 = DIRECTION ( 'NONE',  ( -1.000000000000000000, -0.000000000000000000, -0.000000000000000000 ) ) ;
#321 = FACE_BOUND ( 'NONE', #127, .T. ) ;
#322 = AXIS2_PLACEMENT_3D ( 'NONE', #261, #30, #132 ) ;
#323 = CARTESIAN_POINT ( 'NONE',  ( -2.999999999999999556, 0.000000000000000000, 0.000000000000000000 ) ) ;
#324 = APPLICATION_PROTOCOL_DEFINITION ( 'international standard', 'config_control_design', 1994, #258 ) ;
#325 = ORIENTED_EDGE ( 'NONE', *, *, #200, .T. ) ;
#326 = CALENDAR_DATE ( 2020, 22, 12 ) ;
#327 = EDGE_CURVE ( 'NONE', #36, #194, #230, .T. ) ;
#328 = AXIS2_PLACEMENT_3D ( 'NONE', #273, #107, #207 ) ;
#329 = ORIENTED_EDGE ( 'NONE', *, *, #195, .F. ) ;
#330 = PERSON_AND_ORGANIZATION_ROLE ( 'creator' ) ;
#331 = APPROVAL_PERSON_ORGANIZATION ( #287, #173, #229 ) ;
#332 = EDGE_CURVE ( 'NONE', #194, #36, #202, .T. ) ;
#333 = EDGE_LOOP ( 'NONE', ( #256, #20 ) ) ;
#334 = ORIENTED_EDGE ( 'NONE', *, *, #172, .T. ) ;
#335 = CYLINDRICAL_SURFACE ( 'NONE', #67, 6.349999999999999645 ) ;
ENDSEC;
END-ISO-10303-21;
